The Canadian Guitar Forum banner

1 - 5 of 5 Posts

·
Registered
Joined
·
1,155 Posts
Discussion Starter #1
Post your favorite and most used guitar licks!



---------------------------------------------------
---------------------------------------------------
---------------------------------------------------
---------------------------------------------------
---------------------------------------------------
---------------------------------------------------

in that sort of format preferably.
 

·
Registered
Joined
·
52 Posts
e|---9--7----7--9--------7--------9-9-9---9------5---5---
B|--------10------14-------12----------------12----9-----
G|--------------------18-------16-------------------------
D|---------------------------------------------------------
A|---------------------------------------------------------
E|---------------------------------------------------------
 

·
Registered
Joined
·
1,185 Posts
-----------9-12-9--------------------9-12-9---------9-12-9-----------
--------10--------10--------------10--------10---10--------10--------
------9--------------9----------9--------------9--------------9------
---11------------------11----11---------------------------------11---
12------------------------12---------------------------------------12
---------------------------------------------------------------------


Still building speed on this bad boy, just a basic A Major sweep and then repeat the 2nd inversion.

8p7p5--7p5-----5----------------------------------
------8----8p7---8p7p5-8p7p5--7p5----5------------
----------------------------8----8p7---8p7p5-8p7p5
--------------------------------------------------
--------------------------------------------------
--------------------------------------------------


Got this little legato lick from the first solo break in Pantera's "Revolution is My Name".
 

·
Premium Member
Joined
·
1,354 Posts
Skoczylas said:
e|---9--7----7--9--------7--------9-9-9---9------5---5---
B|--------10------14-------12----------------12----9-----
G|--------------------18-------16-------------------------
D|---------------------------------------------------------
A|---------------------------------------------------------
E|---------------------------------------------------------

:banana: My grandkids will love that one!
 

·
Registered
Joined
·
126 Posts
violation posted this lick in the pickin speed trainer thred so credit goes to him!

8-5--------------------------------------------
----8-5-----8-5--------------------------------
--------7-5-----7-5-----7-5--------------------
--------------------7-5-----7-5-----7-5--------
--------------------------------7-5-----7-5----
--------------------------------------------8-5

man a little A minor pent gotta love it
 
1 - 5 of 5 Posts
Top