The Canadian Guitar Forum banner

1 - 20 of 26 Posts

·
Registered
Joined
·
313 Posts
Discussion Starter #1
Okay, the goal of this is guess the previous riff, and add another one for the next person to guess. And if you have your guitar near, try and play it.

Ill start with an easy one

e -----------------||------------------|-----------------|-----------------|
B -----------------||o-----------------|-----------------|-----------------|
G -----------------||------------------|-------2---0-----|---2-----0-------|
D -----------------||------------------|-----------------|-------4---0-----|
A ----------0-3p0-||o-5p0--------3h5-|-5---0-------3p0-|-4---5-----------|
E -----------------||------3-5---------|-----------------|-------------2p0-|

e ------------------||
B -----------------o||
G ------------------||
D ------------------||
A -3p0------0-3p0-o||
E -----3-5----------||
 

·
Registered
Joined
·
1,252 Posts
Satch's Boogie

:DevilGuitar:
 

·
Registered
Joined
·
313 Posts
Discussion Starter #3
Youre supposed to add another one for the next person to guess.... Oh well, heres another

|-----------------------------------
|-----------------------------------
|-----------------------------------
|-----------------------------------
|-----4---5---4---2-------2--------
|-2-2---2---2---2---5-4-5---5-4-0-
 

·
Registered
Joined
·
48 Posts
crazy train

heres mine:

|------------------------|--------------------------|
|------------------------|--------------------------|
|------------------------|--------------------------|
|-2--2-----2--5p2--4----|-----2--4--2--2--2--4--2-|
|-0--0--4--0--0----0--3-|-(3)-0--0--0--0--0--0--0-|
|------------------------|--------------------------|
 

·
Registered
Joined
·
233 Posts
Crazy Train......;)

This might be a little sloppy but try this....

|-------X-X-X-X-----------X-X-X-X---------------------------X--
|-5-----X-X-X-X--7--5-----X-X-X-X--7^8--7~---7-X-7--5----X--
|-5^6--X-X-X-X--7--5^6--X-X-X-X--7-----7~---7-X-7--5^6--X-
|-5---------------7--5---------------7^9--7~---7-X-7--5-------
|-0--------------------------------------------------------------
|----------------------------------------------------------------
 

·
Registered
Joined
·
313 Posts
Discussion Starter #6
People, people, give your answer and then add another riff. Just copy it from a website...

---------------------------------|-------------------------|-
-9----10-----7------9------10-7-|-7-----8-----7-----------|-
-9-----9-----8------9-------9-8-|-7-----7-----8-----------|-
-9-----9-----9------9-------9-9-|-7-----7-----9-----7\\\--|-
-7-----7------------7-------7---|-5-----5-----------O\\\--|-
---O-O---O-O---O-O----O-O----|---O-O---O-O-------------|-
 

·
Administrator
Joined
·
15,823 Posts
|-----------------------------------------------|
|-----------------------------------------------|
|-----------------------------------------------|
|-----------------------------------------------|
|-9\12--12\14-14-17\16-17\16-17\16--12-12\14-14-|
|-7\10--10\12-12-15\14-15\14-15\14--10-10\12-12-|
 

·
Registered
Joined
·
4 Posts
Em Bm 6x
||-----------------|-----------------|-----------------|------------------||
||-----------------|-----------------|-----------------|------------------||
||o----------------|-----------------|-----------------|-----------------o||
||o-5-----5----5---|-4-----5-----5---|-4-----4-----4-4-|-4-----4-----4-4-o||
||--7-----7----7---|-7-----7-----7---|-5-----5-----5-5-|-6-----6-----6-6--||
||----0-0---0-0--0-|---0-0---0-0---0-|---7-7---7-7-----|---7-7---7-7------||
x x x x x x x x x x x x x x x x x x

Can anyone guess this?
 

·
Registered
Joined
·
698 Posts
Here's one for you 80's metalheads...

E-]---------------------------------------------------------------------|
B-]---------------10-----8--------------------10--12--10---8-----------|
G-]----------------9-----7---------------------9--11---9---7-----------|
D-]----------------7-----5---------------------7---9---7---5----------|
A-]-0--0--0--0--0------------0--0--0--0--0-----------------------------|
E-]----------------------------------------------------------------------|
 

·
Registered
Joined
·
1,348 Posts
Yeah i don't know any of your tabs, i got iron man and crazy train.

anyway here's one.

-----------------------------------------------
-----------------------------------------------
-----------------------------------------------
-(2)-2--(2)-2----------(2)-2--(2)-2------------
-(2)-2--(2)-2----5-----(2)-2--(2)-2----3--3h5\-
-(0)-0--(0)-0--0---5\--(0)-0--(0)-0--0---------
 

·
Registered
Joined
·
1,348 Posts
1 - 20 of 26 Posts
Top